Tablatura para Bajo: ROMANCE- Buck Tick

Para todos quienes pidieron la Tablatura de Buck Tick para Romance en Bajo les dejamos este post y esperamos que les sirva de mucho. Si existe algún error me lo notifican.

-----------------------------------------------------------------
ROMANCE - BUCK-TICK

-----------------------------------------------------------------

Tuning: EADG

Intro: (0:00)

G|----------------------------------------------|
D|----------------------------------------------|

A|-----------------------------2~---0~--------4-|
E|--2~-----2~-----2-2~-------2----------2~/5----|

G|----------------------------------------------|

D|----------------------------------------------|
A|------------------------22222222--------------|

E|--22222222---00000000--------------22222222---|


G|----------------------------------------------|
D|----------------------------------------------|

A|--00000000-------------22222222---00000000----|
E|------------00000000--------------------------|

Verse 1: Tsuki akari... (0:32)

G|----------------------------------------------|
D|----------------------------------------------|

A|----------------------------------------------| x8
E|--2/1~---0-2-0-2-0-----2/1~---0-2-0-2-0-2-----|

Pre Chorus: Ah... (1:05)

G|----------------------------------------------|
D|----------------------------------------------|

A|-55555555555555555----------------------------| x2
E|-------------------55555555555555555----------|

G|----------------------------------------------|

D|----------------------------------------------|
A|--2~---------------55555555555555-------------|

E|-------------0-2-5----------------------------|


Verse 1:  Tenshi ga... (1:29)
G|----------------------------------------------|

D|----------------------------------------------|
A|----------------------------------------------| x4

E|--2/1~---0-2-0-2-0-----2/1~---0-2-0-2-0-2-----|


Pre Chorus: Ah... (1:46)

G|----------------------------------------------|
D|----------------------------------------------|

A|-55555555555555555----------------------------| x2
E|-------------------55555555555555555----------|

G|----------------------------------------------|

D|----------------------------------------------|
A|--2~---------------5555555555555555-----------|

E|-------------0-2-5----------------------------|


Chorus: Ah... (2:09)
G|----------------------------------------------|

D|----------------------------------------------|
A|------------------------22222222--------------|

E|--22222222---00000000--------------22222222---|


G|----------------------------------------------|
D|----------------------------------------------|

A|--00000000-------------22222222---00000000----|
E|------------00000000--------------------------|

Bridge: (2:26)

G|----------------------------------------------|
D|----------------------------------------------|

A|----------------------------------------------|
E|--2~-----2~-----2-2~-----2~-------2/5---------|

G|----------------------------------------------|

D|----------------------------------------------|
A|----------------------------------------------|

E|--222222222222222222222222222222222222222-----|


G|----------------------------------------------|
D|----------------------------------------------|

A|----0-------4---------------------------------|
E|-------2/5------------------------------------|

Pre Chorus: Ah... (2:59)

G|----------------------------------------------|
D|----------------------------------------------|

A|-55555555555555555----------------------------| x4
E|--------------------55555555555555555---------|

G|----------------------------------------------|

D|----------------------------------------------|
A|-22222222222222222--55555555555555555---------|

E|----------------------------------------------|


Chorus: Ah... (3:39)
G|----------------------------------------------|

D|----------------------------------------------|
A|------------------------22222222--------------|

E|--22222222---00000000--------------22222222---|


G|----------------------------------------------|
D|----------------------------------------------|

A|--00000000-------------22222222---00000000----|
E|------------00000000--------------------------|

G|----------------------------------------------|

D|----------------------------------------------|
A|------------------------22222222--------------|

E|--22222222---00000000--------------22222222---|


G|----------------------------------------------|
D|----------------------------------------------|

A|--00000000-------------22222222----5~---------|
E|------------00000000--------------------------|

Outro: (4:12)

G|----------------------------------------------|
D|----------------------------------------------|

A|--455-455-455-455--0~-------------------------|
E|----------------------------------------------|

Comentarios

Entradas populares de este blog

[VIDEO] Night Cafe Sujiganeze: Entrevista a Atsushi Sakurai e Hisashi Imai

BUCK-TICK 2017 : THE PARADE

Sakurai Atsushi: Una Entrevista de Veinte mil palabras

Únete a nuestro proyecto:#theworldisyoursBT

PODCAST #1: El fandom de BUCK-TICK en Ecuador (Primera Parte)